Sarna News: BattleTechGear.com

User:BobTheZombie/MW4 Guitar Tabs

"Rockque" - MechWarrior 4 Soundtrack[edit]

e|-------3-2-------|-------3-2-------|-------3-2-------|-------3-2---7---|
B|-5-3-5-----3-----|-5-3-5-----3-----|-5-3-5-----3-----|-5-3-5-----3-----|
G|-------------2-4-|-----------------|-------------2-4-|-----------------|
D|-----------------|-------------5-4-|-----------------|-----------------|
A|-----------------|-----------------|-----------------|-----------------|
E|-----------------|-----------------|-----------------|-----------------|


"Daggers" - MechWarrior 4 Soundtrack[edit]

e|-------0------------0--------------0--------|-----|
B|---0-2----2-0---0-2---2-0------0-2----2-0---|-0-2-| Play tail only 1st time
G|-3------------3-----------3--3------------3-|-----|
D|--------------------------------------------|-----|
A|--------------------------------------------|-----|
E|--------------------------------------------|-----|

e|-----4-7--4-------4-7-4----------4-7--4-----|---4-|
B|-6-7--------7-6-7-------7-6--6-7--------7-6-|-7---| Play tail only 1st time
G|--------------------------------------------|-----|
D|--------------------------------------------|-----|
A|--------------------------------------------|-----|
E|--------------------------------------------|-----|

e|---------------------------------------12-|
B|-0/2-2-2--2-2-2-2-4-4-4----0-0-2-2-0-2----|
G|------------------------------------------|
D|------------------------------------------|
A|------------------------------------------|
E|------------------------------------------|

e|------------------------2---------------------|
B|-0/2-2-2--2-2-2-2-4-4-4---0----0-0-2-2-0-2----|
G|----------------------------------------------|
D|-------------------------------------------6?-|
A|----------------------------------------------|
E|----------------------------------------------|